.

banners

Stand up and fight. Turisas


   www.tabsfacil.es
    Tablaturas fáciles para guitarra















Stand up and fight. Turisas.


1.-----------------------------------------------
2.-----------------------------------------------
3.-----------------------------------------------
4.---5-4------5-4-5-7-4--------5-4-5--------5-4--
5.-5-----7--5-----------5-7--5-------5-2--5-----7
6.-----------------------------------------------

1.----------------------------------------
2.----------------------------------------
3.----------------------------------------
4.----5-4-5-7-4---------5-4-5---------5-4-
5.--5-----------5-7---5-------5-2---5-----
6.----------------------------------------

1.---------------------
2.---------------------
3.---------------------
4.---9-------------9---
5.---7---10---12---7---
6.--------8---10-------

No hay comentarios:

Publicar un comentario en la entrada