.

banners

Si supieras... Mägo de oz.

   www.tabsfacil.es
    Tablaturas fáciles para guitarra

















Si supieras... Mägo de oz.

1.---------------------------------------------------
2.---------------------------------------------------
3.-------4---4-4---------------4-5-7(9)(7)-5-4-------
4.---5-7---------7-5-4-------7-----------------7-5---
5.---------------------7-5---------------------------
6.---------------------------------------------------

1.---------------------------------------------------
2.---------------------------------------------------
3.-------4-4-4(5)(4)-----------------------4-5-7-----
4.---5-7-------------5-7-7/9-7---5-4-5-5/7-------7---
5.---------------------------------------------------
6.---------------------------------------------------

1.--------7---7-7-----------------7-8-10(12)(10)-8-7------
2.---8-10---------10-8-7-------10--------------------10-8-
3.-----------------------9-7------------------------------
4.--------------------------------------------------------
5.--------------------------------------------------------
6.--------------------------------------------------------

1.--------7-7-7(8)(7)------7---------------7--------------
2.---8-10-------------8-10---10---8-7-8-10---10-7---------
3.------------------------------------------------7-9-----
4.--------------------------------------------------------
5.--------------------------------------------------------
6.--------------------------------------------------------


Mim
   Hace tiempo que no sé de ti,

Re                              Do
hace tiempo que no sé muy bien quién pintó de soledad

Sol                      Re
las paredes de mi habitación.

   
Mim                           Re
   Donde estás cielo donde estás, pues te busco entre mi ayer.

Do                          Sol              Re
Pinto cada amanecer con lágrimas sobre mi piel.

Do                 Sim         Lam       Mim      Re
Duele más que tu frialdad la pena de no saber de ti.

Do                 Sim         Lam              Re
Tengo sed de beber tu voz aunque esté muda de amor.

     
Sol                        Mim                      Re
   Si supieras las noches que robo al olvido pensando en ti.

   
Do                        Lam             Sol     Mim  Re
Si supieras lo roto que me has dejado el corazón

Sol                       Mim                         Re
y a pesar de que duele te juro que trato de estar sin ti,

Lam              Mim    Re     Mim         Lam   Mim
como el mar tus ojos eran donde naufragar.

Mim                           Re
   Soledad dime donde están esos ojos que robé.

Do                      Sol                          Re
Guarda en ellos la verdad pues en ellos encontré mi mar.

      Mim                              Re
   Soledad dime si es verdad que hay un sitio para mí,

Do                            Sol                 Re
desde que ella me dejó mi condena tengo que cumplir.

      Do                  Sim           Lam        Mim   Re
   Y otra vez he vuelto a perder esa sonrisa al amanecer.

     
Do                 Sim     Lam              Re
   Despertar oliendo su piel antes de hacer el amor.

 
Sol                        Mim                      Re
   Si supieras las noches que robo al olvido pensando en ti.

   
Do                        Lam             Sol     Mim  Re
Si supieras lo roto que me has dejado el corazón

Sol                       Mim                         Re
y a pesar de que duele te juro que trato de estar sin ti,

Lam              Mim    Re     Mim         Lam   Mim
como el mar tus ojos eran donde naufragar.

 
   Do           Re   mim               Re      
   La piel que hoy habita en mí, está hecha de besos, 

           Lam
está hecha de ti.

     Do           Re   Mim           Lam      Re
   Tu pelo me recordó que existen sogas de amor.

(3:40)
1.---------------------------------------------------------
2.---/12---12-12-12-----------------------12-12(13)(12)(13)
3.------------------12/9-14/11------12h14------------------
4.-----------------------------12--------------------------
5.---------------------------------------------------------
6.---------------------------------------------------------


1.-------------------------------------------------
2.---(12)-10----------------------------12-13-15---
3.-----------12-11---9-11-12---11-12-14------------
4.-------------------------------------------------
5.-------------------------------------------------
6.-------------------------------------------------


1.--------7---7-7-----------------7-8-10(12)(10)-8-7------
2.---8-10---------10-8-7-------10--------------------10-8-
3.-----------------------9-7------------------------------
4.--------------------------------------------------------
5.--------------------------------------------------------
6.--------------------------------------------------------


1.--------7-7-7(8)(7)------7---------------7--------------
2.---8-10-------------8-10---10---8-7-8-10---10-7---------
3.------------------------------------------------7-9-----
4.--------------------------------------------------------
5.--------------------------------------------------------
6.--------------------------------------------------------


    Mim                              Re
   Esta carta llega a su fin, me despido, cuídate

Do                                   Re
aunque te olvides de mí no te olvides de vivir.

 
Sol                        Mim                      Re
   Si supieras las noches que robo al olvido pensando en ti.

   
Do                        Lam             Sol     Mim  Re
Si supieras lo roto que me has dejado el corazón

Sol                       Mim                         Re
y a pesar de que duele te juro que trato de estar sin ti,

Lam              Mim    Re     Mim         Lam   Mim
como el mar tus ojos eran donde naufragar.

 
Sol                        Mim                      Re
   Si supieras las noches que robo al olvido pensando en ti.

   
Do                        Lam             Sol     Mim  Re
Si supieras lo roto que me has dejado el corazón

Sol                       Mim                         Re
y a pesar de que duele te juro que trato de estar sin ti,

(5:01)
1.--------------------------------------------------------
2.---------12-12---12-12-------12-12-12-13/15-13-12-------
3.---12-14---------------14-12----------------------14-12-
4.--------------------------------------------------------
5.--------------------------------------------------------
6.--------------------------------------------------------

1.--------------------------------------------------------
2.---------------------------------------------------13-15
3.---11-----------12------------------------12-14-16------
4.-------12-14-16----16h14h12-12---12-14-16---------------
5.--------------------------------------------------------
6.--------------------------------------------------------
1.---12-12-12/10-----12-12/15-14-12------15-14-12---------
2.---------------13-----------------15------------15-13-12
3.--------------------------------------------------------
4.--------------------------------------------------------
5.--------------------------------------------------------
6.--------------------------------------------------------

1.-------------------------------------------------------
2.--------------12---13/15-13-12---12-13-10---10-10---10-
3.---14---12-14------------------------------------------
4.-------------------------------------------------------
5.-------------------------------------------------------
6.-------------------------------------------------------

1.----------------------14-15-17---15-17-19(20)-
2.---12-13---13-15-17---------------------------
3.----------------------------------------------
4.----------------------------------------------
5.----------------------------------------------
6.----------------------------------------------


Lam              Mim             Re               Mim         

dónde estás, pues mi recuerdo se ha echado a llorar.

No hay comentarios:

Publicar un comentario