.

banners

Tabs fácil de...Shudder before the beautiful. Nightwish.

  www.tabsfacil.es
   Tablaturas fáciles para guitarra













Shudder before the beautiful. Nightwish.

  (2:55)
1.---------------------8-10--10h8---------
2.------------------10------------10--8-8-
3.---10--10---7--5------------------------
4.----------------------------------------
5.----------------------------------------
6.----------------------------------------

  (3:10)
1.---/12-12h10h8---------10-8-6-----------
2.---------------12h10h8--------10--------
3.---------------------------------12(13)-
4.----------------------------------------
5.----------------------------------------
6.----------------------------------------


1.------------------------------(HH)------
2.---------6---8(10)(8)-6--------6----8(10)
3.---7-5-7---7-------------7-5-7---7------
4.----------------------------------------
5.----------------------------------------
6.----------------------------------------


1.--5-8-------(HH)------------------------
2.------8-6-8--8----18-17-15-17-18-17-18--
3.----------------------------------------
4.----------------------------------------
5.----------------------------------------
6.----------------------------------------


1.----------------------------------------
2.---17-15-17-18-17-18-17-15-17-18-15-17--
3.----------------------------------------
4.----------------------------------------
5.----------------------------------------
6.----------------------------------------

1.----------------------------------------
2.---18-17-18-17-15-17-18-17-18-17-15--/17
3.----------------------------------------
4.----------------------------------------
5.----------------------------------------
6.----------------------------------------

1.-------/17--15-15-------
2.---18-------------17-15-
3.------------------------
4.------------------------
5.------------------------
6.------------------------...


No hay comentarios:

Publicar un comentario