.

banners

Tabs fácil de...Shadow soldiers. Accept

   www.tabsfacil.es
    Tablaturas fáciles para guitarra














Shadow soldiers. Accept.

Guitarra 1.

1.-------4--------2-----------4-----4----------
2.-----5--------2----------5------5------------
3.---6--------2---------6-------6------------8-
4.-----------------------------------------9---
5.-4-----------------4-------------------9-----
6.---------2---------------------------7-------



1.-------------------------------4--------------4-
2.-----------------------------4-------4-------5--
3.-----8-------6-----6-------5-------5-------6----
4.---9-------7-----7-------6-------6-------6------
5.-9-------7-----7-----------------------4--------
6.-------5--------------4-------------------------



1.---------------4---------------4---------------
2.-----5-------4------4--------5-------4-5-----5-
3.---6-------5------5--------6-------6-------6---
4.-6-------6------6--------6-------6-------6-----
5.-----------------------4-----------------------
6.------4----------------------------------------



1.--------4--------2---------4-----4-------------
2.------5--------2---------5-----5---------------
3.----6--------2---------6-----6-----------8----8
4.---------------------------------------9-----9-
5.-4------------------4----------------9------9--
6.----------2------------------------7-----------



1.-------------------------4---------------5----
2.-----------------------4-------4--------5-----
3.-------6------6------5-------5--------6-------
4.-----7------7------6-------6--------7---------
5.---5------7-----------------------------------
6.-5--------------4-----------------5-----------



1.-------------------4--------------
2.-------5---------4--------4-------
3.-----6---------5--------5---------
4.---7---------6--------6-----------
5.------------------------------4---
6.-----------4----------------------



Guitarra 2.

1.--------------------------------------------------
2.-7/9--9-9(10)(9)-7--------------------------------
3.-------------------9--9-8-9/13-8---6-5-6-9(11)-8-6
4.---------------------------------11---------------
5.--------------------------------------------------
6.--------------------------------------------------




1.-------------------------------9------------------
2.-----------------------9--9-10---10-9-------------
3.-6-5------------------------------------------9/13
4.-----6(7)(6)-4---4/6-------------------11--13-----
5.---------------7----------------------------------
6.--------------------------------------------------



1.--------------------------------------------------
2.--------------------------------------------------
3.------------------11-9-8--------------------------
4.-13-11--/11-10-11--------11-11-10---------------6-
5.----------------------------------12-11-9-7-6---4-
6.--------------------------------------------------


No hay comentarios:

Publicar un comentario en la entrada