.

banners

Tabs fácil de...Repentless. Slayer.

  www.tabsfacil.es.
    Tablaturas fáciles para guitarra















Repentless. Slayer.


1.-----------------------------------
2.-----------------------------------
3.-----------------------------------
4.-----------------------------------
5.---6-6-6--6-7-9--7h6----6-7--6-7-9-
6.---------------------9--4-5--------

1.----------------------------------
2.----------------------------------
3.----------------------------------
4.----------------------------------
5.--7h6----6-7--6-7-9--7h6----7-7-6-
6.------9--4-5-------------9--5-5-4-...



No hay comentarios:

Publicar un comentario