.

banners

Rattle that lock. David Gilmour.

www.tabsfacil.blogspot.com
Tablaturas fáciles para guitarra.




















Rattle that lock. David Gilmour.

(1:28)
1.------------------------------11-
2.---13----------------11----13----
3.--------12-8------12----12-------
4.-------------10------------------
5.---------------------------------
6.---------------------------------

1.----------------------------------
2.----------------------------------
3.------8-------------8------------8
4.--/10---10-10---/10---10-10-8-10--
5.----------------------------------
6.----------------------------------

1.----------------------------------
2.-----------------------13----11-13
3.--10(12)(10)-8------12----12------
4.---------------10-----------------
5.----------------------------------
6.----------------------------------

1.-----11----14(15)-13--------------
2.--13----13------------15(16)(15)--
3.----------------------------------
4.----------------------------------
5.----------------------------------
6.----------------------------------

1.----------------------------------
2.-13--------------12(13)-11-8----11
3.----15-12--------------------10---
4.----------15-13-------------------
5.----------------------------------
6.----------------------------------

1.--------
2.--12-13-
3.--------
4.--------
5.--------
6.--------...


No hay comentarios:

Publicar un comentario