.

banners

Tablatura fácil de...Pensatorium. Mägo de oz.


  www.tabsfacil.es
    Tablaturas fáciles para guitarra














Pensatorium. Mägo de oz.



1.---------------2-2--------------------------------
2.-----------2h3-----2h3-3------------------2h3h2---
3.------4---------------------4--------4----------4-
4.----4---4-----------------4---4----4---4----------
5.--2------------------------------2----------------
6.--------------------------------------------------

1.--2-2---------------------------------2-2-------
2.------2h3-3------------------2h3h2--------2h3-3-
3.---------------4--------4----------4------------
4.-------------4---4----4---4---------------------
5.--------------------2---------------------------
6.------------------------------------------------

1.--------------------------------------------------
2.------------------3-------2h3-------------0-------
3.----4--------2------2---2------------0--------0---
4.--4---4----2---2------0------------0---0----0---0-
5.---------0----------------------------------------
6.--------------------------------3-----------------

1.----------------------------------0---2-
2.-----------2h3-3----------------------2-
3.------4-------------4--------2--------2-
4.----4---4---------4---4----2---2------4-
5.--2----------------------0------------4-
6.--------------------------------------2-...




(0:39)
1.--------------------------------------------------
2.--------------------------------------------------
3.--------------------------------------------------
4.--------------------------------------------------
5.-9-9-9-9--9-9-9--9-9-9--9-7--5-5-5-5--5-5-5--5-5-5
6.-7-7-7-7--7-7-7--7-7-7--7-5--3-3-3-3--3-3-3--3-3-3

1.--------------------------------------------------
2.--------------------------------------------------
3.--------------------------------------------------
4.-------------------------------------7-7-7-7-7-7-7
5.-5-9-7--7-7-7-7--7-7-7--7-7-7------4-5-5-5-5-5-5-5
6.-3-7-5--5-5-5-5--5-5-5--5-5-5--5-7----------------

                    (0:51)
1.--------------------------------------------------
2.--------------------------------------------------
3.--------------------------------------------------
4.-6-6-6-6-6-6-6--4-4-4-2--5-5-5-4--4-4-4-2--7-7-7-4
5.-4-4-4-4-4-4-4------------------------------------
6.--------------------------------------------------

                                    (1:03)
1.-------------------------------------------------
2.-------------------------------------------------
3.---------------------------------------9--11--12-
4.--------------------5-5-5-4---4-4-4-2------------
5.-5-5-5-4--2-2-2-4--------------------------------
6.-------------------------------------------------

1.--------------------------------------------------
2.--------------------7h8h7h8h7h8h7h8---11h12h11h12-
3.-11--9--7--6--7--9--------------------------------
4.--------------------------------------------------
5.--------------------------------------------------
6.--------------------------------------------------

1.-----------------
2.---11h12h11h12---
3.-----------------
4.-----------------
5.-----------------
6.-----------------

(1:14)
1.-/12-12-11-9-7-----------7-9----------
2.---------------9----9-10-----10-9-----
3.-----------------9----------------/11-
4.--------------------------------------
5.--------------------------------------
6.--------------------------------------

1.-------------------
2.-9-10-9----9-12-12-
3.--------11---------
4.-------------------
5.-------------------
6.-------------------

1.---12-12-14-14h16h14-14---
2.--------------------------
3.--------------------------
4.--------------------------
5.--------------------------
6.--------------------------

(2:22)Estribillo.
1.-----------------------------------------------
2.-----------------------------------------------
3.-----------------------------------------------
4.-6-----2--------6-2-4--6------2----------6-2-4-
5.-4--6--0--2--4--4-0-2--4---6--0--2---4---4-0-2-
6.----4-----0--2-------------4-----0---2---------

(2:48)
1.-4-5-7-7-5-4--2-4-5-5-4-2--0-2-4-4-2-0-
2.---------------------------------------
3.---------------------------------------
4.---------------------------------------
5.---------------------------------------
6.---------------------------------------

1.--------4-5-7-
2.--4/5\4-------
3.--------------
4.--------------
5.--------------
6.--------------


1.---7-9-11-12-11-9-7-----------------------7---
2.--------------------9-9-10-12-7---5-5h7/9-----
3.----------------------------------------------
4.----------------------------------------------
5.----------------------------------------------
6.----------------------------------------------...


No hay comentarios:

Publicar un comentario