.

banners

Pájaros disecados. Fito & fitipaldis.



   No nos cansamos de escuchar a Fito y sus Fitipaldis ni tampoco de intentar tocar con la guitarra sus canciones pertenezcan al disco que pertenezcan. 
  Hoy en tablaturas fáciles os queremos dejar ese riff de inicio perteneciente  al tema "Pájaros disecados" de su disco "Huyendo conmigo de mi" con el que esperamos que disfrutéis y paséis un buen rato.
  Un saludo.
  TabsFácil.







Pájaros disecados. Fito & fitipaldis.


1.---------------------------------------------
2.---------------------------------------------
3.---------------------------------------------
4.-----------3----3/5-3-5-5h3---3----------3---
5.-------3-5---5--------------5--------3-5---5-
6.---3/5---------------------------3/5---------

1.----------------------------
2.----------------------------
3.----------------------------
4.---------------------3-2----
5.-----------------3-5-----3-5
6.---3(4)(3)-1-3/5------------...


No hay comentarios:

Publicar un comentario