.

banners

On peregrine wings. Joe Satriani.


  Para mi gusto el mejor guitarrista sin duda, Joe Satriani consigue mezclar melodía y técnica de una manera asombrosa, consiguiendo que su guitarra hable, transmita sentimientos sin necesidad de articular palabra. Pienso que eso está al alcance de muy pocos, aunque tengo que recalcar que, no deja de ser mi opinión y sobre gustos, no hay nada escrito.
  Hoy, desde Tablaturas fáciles os quiero dejar un pequeñomomento en tablatura de  su último trabajo que espero que os guste y disfrutéis.
  Un saludo.
  TabsFácil.







On peregrine wings. Joe Satriani.

1.-----------------------------------------
2.-----------------------------------------
3.-----6-6-3-3--6-6-3-3---6-6-3-3--6-6-3-3-
4.--//-4-4-1-1--4-4-1-1---4-4-1-1--4-4-1-1-
5.-----------------------------------------
6.-----------------------------------------

1.------------------------------------------
2.------------------------------------------
3.----------------5h6-3--3h5----------------
4.--3h4-6--3h4---------------6--3h4-6--3h4--
5.-------------6---------------------------6
6.------------------------------------------

1.------------------------------------------
2.------------------------------------------
3.------------------------------6h8-5--5h6-3
4.----------------3h4-6--3h4----------------
5.--4h6-6--4h6-6-------------6--------------
6.------------------------------------------

1.-----------------------------------------
2.-------------------------------18(19)-18-
3.-----------------------------------------
4.--3h4-6--3h4-----------------------------
5.-------------6--4h6-6--4h6-6-------------
6.-----------------------------------------

1.-----------------------------------------
2.--18-------------------------------------
3.-----18-18-------------------------------
4.------------20(21)-20-20-----------------
5.-------------------------20-20-18-18-----
6.-----------------------------------------

1.-------------------------------18(19)-18-
2.--18(19)--19(21)-------------------------
3.-----------------18--20-18-20------------
4.-----------------------------------------
5.-----------------------------------------
6.-----------------------------------------

1.--18-------------------------------------
2.-----------------------------------------
3.-----------------------------------------
4.----------16----15-----------------------
5.-------18----18----18-16h18-18--16h18-18-
6.-----------------------------------------


1.-----------------------------------------
2.--18(19)--18-18--------------------------
3.----------------18-18--------------------
4.-----------------------20(21)-20-20------
5.------------------------------------20-20
6.-----------------------------------------


1.---------
2.---------
3.---------
4.---------
5.--18-18--
6.---------...


No hay comentarios:

Publicar un comentario en la entrada