.

banners

Tablatura fácil de...Melodian. Mägo de oz.


  www.tabsfacil.es
    Tablaturas fáciles para guitarra















Melodian. Mägo de oz.



(Guitarra 1)
1.---------------------------------------------------
2.---------------------------------------------------
3.---------------------------------------------------
4.-2----------5-4---2------5-4-----------------------
5.-0---3---5--3-2---0---3--3-2---0-0-0-0-0-0-0-0-----
6.-----1---3------------1------------------------1-1-

1.--------------------------------------------------
2.--------------------------------------------------
3.--------------------------------------------------
4.--------------------------------------------------
5.------------------------------3-3-3-3---2-2-2-2---
6.-1-1-1-1-1-1--3-3-3-3-3-3-3-3---------------------

1.-----------------------------------------------------
2.-----------------------------------------------------
3.-----------------------------------------------------
4.---------------------------------------------------2-
5.-0-0-0-0-0-0-0-0-----------------3-3-3-3--2-2-2-2--0-
6.-----------------1-1-1-1-1-1-1-1---------------------

(Guitarra 2)
1.------------------------------------------------------
2.------------------------------------------------------
3.-9----9-12-10-9--------7--7-10-9-------9----9-12-10-9-
4.---10-----------12-10---9--------10-9----10-----------
5.------------------------------------------------------
6.------------------------------------------------------

1.----------------------
2.----------------------
3.---------9------------
4.---12-10---12-10-12---
5.----------------------
6.----------------------

(0:33) ..."La primera estrofa..."
1.-----------------------------------------------------
2.-----------------------------------------------------
3.-----------------------------------------------------
4.-5-----------------------------------------------7---
5.-3-3-3-3-3-0-3-3-3-3-3-0-5-----------------------5-5-
6.-------------------------3-3-3-3-3-3-0-3-3-3-3-3-----

..."Desde que..."
1.------------------------------------------------
2.-------------------------------------12h13-13-13
3.------------------------------------------------
4.------------------------------7-----------------
5.-5-5-5--7--------3--5--7---3--5--7--------------
6.--------5-5-5-5--1--3--5---1-----5--------------

1.-12----------------------12---------------------12----
2.----13-13-13-12h13-13-13---13-13-13-12h13-13-13----13-
3.------------------------------------------------------
4.------------------------------------------------------
5.------------------------------------------------------
6.------------------------------------------------------

1.------------------12--------------------12------------
2.-13-13-12h13-13-13--13-13-13-12h13-13-13--13-13-13-12-
3.------------------------------------------------------
4.------------------------------------------------------
5.------------------------------------------------------
6.------------------------------------------------------

(0:52) ..."No voy a dejarte..."
1.-------------------------------------------------
2.-------------------------------------------------
3.-------------------------------------------------
4.---2--------------------5-4---2------------5-4---
5.---0------3------5------3-2---0------3-----3-2---
6.----------1------3-------------------1-----------

(2:19)
1.-----------------------------------------
2.-----------------------------------------
3.------------------------------9-7--------
4.---7-7-9-10--7-9-10----7-9-10-----10-9-7-
5.-----------8--------10-------------------
6.-----------------------------------------

1.--------------
2.--------------
3.--------------
4.---9-10---7-9-
5.-8------8-----
6.--------------

1.------------------------------
2.------------------------------
3.------/9-10-9-7----7----------
4.---10-----------10---10-9-7---
5.------------------------------
6.------------------------------

(solo)(2:37)
1.--------------------------------------
2.---------20---------------------------
3.-/19(21)----19(21)---19(21)(19)-19-17-
4.--------------------------------------
5.--------------------------------------
6.--------------------------------------

1.----------------
2.----------------
3.-19-------20-20-
4.----17-17-------
5.----------------
6.----------------


1.-8-10-12-10-8-10-8----8------------------
2.-------------------12---12-10-12-10-8-10-
3.-----------------------------------------
4.-----------------------------------------
5.-----------------------------------------
6.-----------------------------------------

1.-------------
2.-8----8------
3.---10---10-9-
4.-------------
5.-------------
6.-------------


1.------------------------------------
2.------------------------------------
3.-10-9-7-9-7----7--------------------
4.------------10---10-9-10-9-10-7-9-7-
5.------------------------------------
6.------------------------------------

1.----------------
2.----------------
3.----------------
4.----7-----------
5.-10---10-8-10-8-
6.----------------

1.----------------------------------
2.----------------------------------
3.----------------------------------
4.----------------------------------
5.-7-8-7----7-----------------------
6.-------10---10-8-10-8-7-8-7-5-7-8-

1.-------------------
2.-------------------
3.-----------7(8)(7)-
4.---------7---------
5.-5-7-8-5-----------
6.-------------------


1.------------------------------------
2.------------------------------------
3.-(8)(7)-5---7-7---5-7-8-7h8h7h5---5-
4.----------5-----7---------------7---
5.------------------------------------
6.------------------------------------

1.------------------
2.-5-8-10(12)(10)-8-
3.------------------
4.------------------
5.------------------
6.----------------...


(3:34)
1.----------------------------------------------
2.----------------------------------------------
3.----------------------------------------------
4.-4---------------7---6-----4----------7---6---
5.-2----5----7-----5---4-----2----5-----5---4---
6.------3----5--------------------3-------------

No hay comentarios:

Publicar un comentario