.

banners

Tabs fácil de...Los renglones torcidos de dios. Finisterra ópera rock.


  
www.tabsfacil.es
Tablaturas fáciles para guitarra!












Los renglones torcidos de dios. Mägo de oz.

  (0:08)
1.------------------------------------
2.------------------------------------
3.------------------------------------
4.-----------------8h7h5-------/5-3-2-
5.--/5--7-8-7-5----------8-7-8--------
6.--------------6---------------------

1.-----------------------------------
2.------------------3----------------
3.---------------/2------------------
4.-----------------------------------
5.--5-3--7h8h7h5-------5h7h8h7h5-----
6.-------------------------------8-6-

1.-----------------------------------
2.-----------------------------------
3.-----------------------------------
4.----3-2--/5------------2-h3h2---/3-
5.--5------------------3--------5----
6.------------6--8h6h5---------------

1.-------------------
2.-------------------
3.-------------------
4.------------5--2-0-
5.------5-8-7--------
6.--5-6--------------

(0:37)
1.-----------------------------------
2.-----------------------------------
3.--12(14)(12)(14)--12(14)(12)-10----
4.--------------------------------14-
5.-----------------------------------
6.-----------------------------------

1.-------------------------------------
2.-----------------------------11h13h15
3.--------------------12h14h15---------
4.-15h14h12--12h14h15------------------
5.-------------------------------------
6.-------------------------------------

1.-/13--12-10-12----------------------
2.---------------15-13--13(15)(13)----
3.---------------------------------12h
4.------------------------------------
5.------------------------------------
6.------------------------------------

1.---------13----------
2.---------------------
3.--h14h12----14h15h14-
4.---------------------
5.---------------------
6.---------------------

(o:53)
1.-----------------------------------
2.-----------------(HH)--------------
3.--/9-10-7--/9-10--7----------------
4.---------------------7/-10--8-7-8--
5.-----------------------------------
6.-----------------------------------

1.-----------------------------------
2.-----------------------------------
3.--------T----------T-------/9-10-7-
4.-8h7h8--12-8h7h8--17-8h7h8---------
5.-----------------------------------
6.-----------------------------------

1.-----------------------------------
2.------(HH)---------10h8----8-------
3.-/9-10-7--9-10-/12------10---10-9--
4.-----------------------------------
5.-----------------------------------
6.-----------------------------------

1.--------------------------------------
2.---------10h11h10--13h15h13--11h13h11-
3.-9h10h12------------------------------
4.--------------------------------------
5.--------------------------------------
6.--------------------------------------

1.----------------------------5-6-------
2.-10h11h10--8h10h8--6--5h6h5---------15
3.--------------------------------/12---
4.--------------------------------------
5.--------------------------------------
6.--------------------------------------

1.--15-13-12----12-13-10-12-13-10--12-
2.-----------13-----------------------
3.------------------------------------
4.------------------------------------
5.------------------------------------
6.------------------------------------

1.-13-/15------------------------------
2.--------20(22)(20)-18-17--17(18)(17)-
3.-------------------------------------
4.-------------------------------------
5.-------------------------------------
6.-------------------------------------

1.--------
2.--13-15-
3.--------
4.--------
5.--------
6.--------

(1:29)
1.----------------------------------
2.----------------------------------
3.--5-3-2---------------------------
4.--------0-0-0-0-0-0-0-0-0-0-0-0-0-
5.----------------------------------
6.----------------------------------

1.----------------------------------
2.----------------------------------
3.--5-3-2---------------------------
4.--------0-0-0-0-0-0-0-0-0-0-0-0-0-
5.----------------------------------
6.----------------------------------

                            "Igual que ayer...
1.-----------------------------
2.-----------------------------
3.--5-3-2----------------------
4.---------------------------7-
5.--------5-5-5-5-5-5-5-5-5--5-
6.----------------------------...

(4:45)
1.----------------------6-5-------
2.-13(15)(13)-11-10---------8-6---
3.------------------10----------7-
4.--------------------------------
5.--------------------------------
6.--------------------------------

   T          T         T
1.-17-13h10--17-13h10--17-13h10-
2.------------------------------
3.------------------------------
4.------------------------------
5.------------------------------
6.------------------------------...

(4:52)           T           T
1.-15h13-10-13--15-13h10h13-15-13h10h13
2.-------------------------------------
3.-------------------------------------
4.-------------------------------------
5.-------------------------------------
6.-------------------------------------

    T           T          T
1.-17-13h10h13-17-13h10h13-17-
2.----------------------------
3.----------------------------
4.----------------------------
5.----------------------------
6.----------------------------...

No hay comentarios:

Publicar un comentario