Ir al contenido principal

Acordes de...Lo que sobra de mi. Fito & fitipaldis.



  Segundo corte del último disco de Fito & Fitipaldis "Lo que sobra de mí" un temazo como todos los que nacen de la inspiración de este grande de la música española del que os queremos dejar los acordes aquí en tablaturas fáciles, para que disfrutéis y paséis un buen rato.
  Un saludo.
  TabsFácil.


Lo que sobra de mi. Fito & fitipaldis.

Do#   Re#

Sol#

   Tuve que aprender  de nuevo a respirar,

de nuevo tuve que aprender.

Fam
Hice agujeros en la capa del disfraz de Superman

que nunca me he querido poner.

Do#
  Me jugué a una carta la felicidad

nunca pensé que la pudiera perder.


Sol#
  Toda la vida era un cuento y yo era Peter Pan

por eso no he podido crecer.

Re#
  Ya llega la tormenta, ya la oigo venir,

                            Fam
viene derechita hacia mí, haciendo bum, bum, bum, bum.

Do#                     Re#                  Fam
  Si me concedieras un deseo para hacerme feliz

Sol#                 Re@                 Fam
me gustaría cortar todo lo que sobra de mí.

Do#                      Re@                     Fam
  Ahora sé que el cielo no está lejos, nosotros sí.

Do#                  Re#            Do#    Re#
Demasiado tiempo huyendo conmigo de mí.

Sol#
   No era la más fea y me sacó a bailar,

ella me sacó a bailar.

Fam
Y movía las caderas para despistar, sólo para despistar.

Do#
  Fué tan larga la condena, sólo un día más,

                     Sol#
sólo un día más, cómo un suspiro que debió durar

lo mismo que la eternidad.

Re#
  Ya llega la tormenta, ya la oigo venir,

                            Fam
viene derechita hacia mí, haciendo bum, bum, bum, bum.

Do#                     Re#                  Fam
  Si me concedieras un deseo para hacerme feliz

Sol#                 Re@                 Fam
me gustaría cortar todo lo que sobra de mí.

Do#                      Re@                     Fam
  Ahora sé que el cielo no está lejos, nosotros sí.

Do#                  Re#            Do#    Re#
Demasiado tiempo huyendo conmigo de mí.

Re#                                   Fam
   Sé que en la próxima estación de nuevo me despido

Do#                   Sol#         Re#
y sé que nunca dije adiós convencido,

Do#                  Re#           Fam
y complicarme me resulta muy sencillo.

Re#
Igual que respirar.


(2:55)
1.------------6-----------------------------------
2.---6-8-8(9)---9-8-6-----------------------------
3.-8----------------------8-10-10h8---------------
4.---------------------10-----------10--6-8-8h6---
5.----------------------------------------------8-
6.------------------------------------------------


1.---------------------------------
2.---------------------------------
3.---------------------------------
4.---------------------------------
5.---6-8-8h6-----------------------
6.-----------8---6-8-8h6/4---3-1/4-...


Comentarios

LO MÁS BUSCADO EN TABSFACIL.ES:

Tabs fácil de... Evil twin. Anthrax.

"For all kings" es el título con el que, el 26 de Febrero de 2016, la legendaria banda y padres del thrash metal, Anthrax, regresaban al panorama musical internacional después de 4 años de inactividad.   Unos días antes nos dejaban portada y tema adelanto "Evil twin" del que como siempre os quiero dejar unos momentos en tablatura que, espero que disfrutéis.   Un saludo.   TabsFácil.





Evil twin. Anthrax.
1.------------------------------------- 2.------------------------------------- 3.------------------------------------- 4.--6-7-8--6-7-8--------4h6-7-8--6-7-8- 5.---------------6-6-6----------------- 6.-------------------------------------
1.----------------------- 2.----------------------- 3.----------------------- 4.--3-/6-6--6-7-8--6-7-8- 5.--1-/4-4--------------- 6.----------------------...
(0:22)
1.-------------------------------- 2.-------------------------------- 3.-------------------------------- 4.-------------------------------- 5.-------------------------------- 6.--4-4-4-7-7-2-…

Aprende a tocar...Constelación Alpha D.C.I. Mägo de Oz.

Todas las críticas que he leído del disco coincidían en que "Constelación D.C.I." era  la canción más "rara" que había en el nuevo trabajo de la banda, din dejar de ser un buen tema.
  En OZTABLATURAS puedes aprender a tocarla desde ya.
  Un saludo.
  OzTablaturas.

Constelación Alpha D.C.I.







Acordes de... Lágrimas de mármol. Joaquin Sabina.

"Lágrimas de mármol" es el segundo adelantodel esperado trabajo de Joaquín Sabina, "Lo niego todo" que saldrá a primeros de Marzo. Cómo todos ya sabréis, para éste último disco se ha rodeado de nada más y nada menos que de Leiva como productor del disco, "Voy a juntarme con un jovenzuelo que me gusta mucho, a ver si renovamos un poco el aire",  son palabras textuales del propio artista.  En Tablaturas fáciles os queremos dejar los acordes de "Lágrimas de mármol" para los que les guste tocar las canciones de Sabina.    Un saludo.    TabsFácil.




Lágrimas de mármol. Joaquin Sabina.

Si  -  La#m  -  Sol·m  -  Fa#  -  Do#m - Sol  -  Si-  Fa#
Si                                    Mi    El tren se aleja, el tiempo pasa
Si                               Fa# la vida alrededor ya no es tan mía
Sol#m                            Mi desde el observatorio de mi casa
Si                      Fa# la fiesta se resfria.
Si                                          Mi Los pocos que …

Tablatura fácil de... Warrior. Michael Schenker Group.

Mientras el 2 de Marzo regresa un grande de la guitarra acompañado de un elenco de artistas de gran talla y envergadura, ya podemos ir disfrutando de adelantos o singles, cómo el tema "Warrior" segundo tema adelanto de "Resurrection" el próximo disco de Michael Schenker y en el que contará con los vocalistas más populares que pasaron por sus filas años atrás, Gary Barden, Graham Bonnet y Robin McAuley.
  Disfruta en Tablaturas fáciles de un momento en tablatura de "Warrior." adelanto del próximo disco de Michael Schenker.
  Un saludo.


Warrior. Michael Schenker Group.

1.---------------------------|
2.---------------------------|
3.-------5-------------------|
4.-5-7-9---9-7-9--7-5-7--5-4-|
5.---------------------------|
6.---------------------------|

1.--------------|
2.--------------|
3.--------------|
4.-4h5---4------|
5.-----7---7-5--|
6.--------------|...



(0:45)
1.--------------------------------|
2.--------------------------------|
3.--------------------------------|
4…

Tabs fácil de ... The eagle flies alone. Arch Enemy.

Tres años después Arch Enemy vuelve a sacar disco "Will to power". Un disco para consagrar dentro de la banda a su nueva vocalista, Alissa Whiteglutz y en el que empiezan aparecer las aportaciones del casi recién incorporado Jeff Loomis.
  Un disco cargado, como nos tiene acostumbrados la banda sueca, de riffs cañeros y grandes melodías y, es una de esas de las que os queremos dejar hoy en Tablaturas fáciles un momento en tablatura.
Nada mas y nada menos que del tema "The eagle flies alone" para que la disfrutéis y practiquéis con la guitarra.
  Un saludo.
  TabsFácil.





The eagle flies alone. Arch Enemy.


(0:45)

1.------------------------------|
2.------------------------------|
3.-------5/6\5-3-5-3h5h3/1---3--|
4.-3-5-6-------------------1---1
5.------------------------------|
6.------------------------------|

1.---------------------------|
2.---------------------------|
3.-3---3---3---3---3---3---3-|
4.---1---1---1---1---1---1---|
5.---------------------------|
6.----------------…