.

banners

Tablatura fácil de...La novia cadáver. B.S.O.




    La novia cadáver o el cadáver de la novia es una película del año 2005 dirigida por Tim Burton basada en un cuento popular ruso-judío y ambientada en la época victoriana, cuya banda sonora fue escrita por Danny Elfman.
   La película, ambientada en un pueblo de la época victoriana, muestra el estilo y los temas clásicos de Tim Burton.
  En tablaturas fáciles te queremos dejar unos momentos en tablatura, un cover de una de las partes más emotivas de la película y la banda sonora.
  Un saludo.
  TabsFácil.



 



La novia cadaver. Dueto piano.

1.----------------------------|
2.----------------------------|
3.-9-7-9-10--9-7--------------|
4.---------------10-9-10-9-10-|
5.----------------------------|
6.----------------------------|

1.------------------------|
2.--------------------8-6-|
3.-7-9------9--7-9-10-----|
4.-----9-10---------------|
5.------------------------|
6.------------------------|

1.------------------------------------------------|
2.------------------------------------------------|
3.-9-7--------------------------------------------|
4.-----10--7-9-10--9-10-12--10-9--7-9-10--9-10-12-|
5.------------------------------------------------|
6.------------------------------------------------|


1.----------------------------------------------|
2.----------------------------------------------|
3.----9------------------------------9--7-9-7---|
4.-10---7-9-10--9-10-12--10-9--7-6-7----------7-|
5.----------------------------------------------|
6.----------------------------------------------|


1.-------------------------------------12--------|
2.-------------------10-12-13-12-13-15-----------|
3.-----------------9----------------------7-9-10-|
4.-7-9-10--9-10-12-------------------------------|
5.-----------------------------------------------|
6.-----------------------------------------------|


1.--------------------------|
2.-----------15-17-18-17-15-|
3.-9-7----7-----------------|
4.-----10-------------------|
5.--------------------------|
6.--------------------------|

1.--------------------------|
2.----15--3-5-6-5-3---3-----|
3.-17---------------5---4---|
4.------------------------0-|
5.--------------------------|
6.--------------------------|


1.-----------------------------------------------|
2.-----------------------------------------------|
3.-19-19--19-19--19-19--20-19--19-22-22-22-20-19-|
4.-----------------------------------------------|
5.-----------------------------------------------|
6.-----------------------------------------------|


1.---------------------------------------------|
2.---------------------------------------------|
3.-17--17-19--20-19-------------------------19-|
4.------------------17-20--20-22--20-19--20----|
5.---------------------------------------------|
6.---------------------------------------------|


1.-------------------------------------------------|
2.----------------15--10----------10---------10----|
3.-15-14----12-14--------10----10----10---------10-|
4.-------17-----------------12---------------------|
5.---------------------------------------12--------|
6.-------------------------------------------------|


1.------------------------------------------------|
2.-------10---------------------------------------|
3.----10----10------------------------------------|
4.-12-----------------7---7-7---7---8-7---10---10-|
5.-------------12---------------------------------|
6.------------------------------------------------|


1.-------------------------------------------------|
2.-------------------------------------------------|
3.-------------------------------------------------|
4.-10---8-7---5---5-7---8-7--------3---5-3-2---0---|
5.--------------------------8-7-5------------------|
6.-------------------------------------------------|

1.-------------------------------------------------|
2.-------------------------------------------------|
3.-----------------------------2---2-3-2-3-5-------|
4.-----------2---2-3-2-3-5-3-5---5-----------------|
5.-3---5-3-5---5-----------------------------------|
6.-------------------------------------------------|


No hay comentarios:

Publicar un comentario