.

banners

La Cruz de Santiago. Finisterra ópera rock. Mägo de oz.



www.tabsfacil.blogspot.com
Tablaturas fáciles para guitarra!!











La Cruz de Santiago. Finisterra ópera rock. Mägo de oz.


1.---------------------------------------
2.---------------------------------------
3.---------------------------------------
4.--0-2--2-2-2-2-2--2-2-2--2--2-2-2-2-2--
5.---------------------------------------
6.---------------------------------------



1.---------------------------------------
2.---------------------------------------
3.---------------------------------------
4.-2-2-2--0-2--2-2-2-2-2--2-2-2--2--2-2-2
5.---------------------------------------
6.---------------------------------------

1.------------
2.------------
3.------------
4.-2-2--2-2-2-
5.------------
6.-----------...

  (0:12)
1.--------------------------------------
2.----------12------12-13-12------------
3.--9-9-9-9----9--9----------9--9-9-9-9-
4.--------------------------------------
5.--------------------------------------
6.--------------------------------------

1.--------------------------------------
2.--------------------------------12----
3.-11-9-9-11-9-12-9-11-9--9-9-9-9----9--
4.--------------------------------------
5.--------------------------------------
6.--------------------------------------

1.--------------------------------------
2.---12-13-12-10--12-13-10---8-10-7-8---
3.-9----------------------12----------9-
4.--------------------------------------
5.--------------------------------------
6.--------------------------------------

1.--------------------------------------
2.----------12------12-13-12------------
3.--9-9-9-9----9--9----------9--9-9-9-9-
4.--------------------------------------
5.--------------------------------------
6.--------------------------------------

1.--------------------------------------
2.--------------------------------12----
3.-11-9-9-11-9-12-9-11-9--9-9-9-9----9--
4.--------------------------------------
5.--------------------------------------
6.--------------------------------------

1.--------------------------------------
2.---12-13-12-10--12-13-10---8-10-7-8---
3.-9----------------------12----------9-
4.--------------------------------------
5.--------------------------------------
6.--------------------------------------

1.--------------------------------------
2.--------------------------------------
3.--4-----------------------------------
4.--2-2-2-2-2-2-2-2-2--4----------------
5.---------------------2-2-2-2-2-2-2-2-2
6.--------------------------------------

1.--------------------------------------
2.--------------------------------------
3.--------------------------------------
4.--2------------------5----------------
5.--0-0-0-0-0-0-0-0-0--3-3-3-3-3--3-2---
6.--------------------------------------

1.--------------------------------------
2.--------------------------------------
3.--4-----------------------------------
4.--2-2-2-2-2-2-2-2-2--4----------------
5.---------------------2-2-2-2-2-2-2-2-2
6.--------------------------------------

1.--------------------------------------
2.--------------------------------------
3.------------------------------------4-
4.--2------------------5--------------2-
5.--0-0-0-0-0-0-0-0-0--3-3-3-3-3--3-2---
6.--------------------------------------

1.------------
2.------------
3.------------
4.--4h2-------
5.------5h4h5-
6.------------

  "No era el hombre...
1.----3--------------------------------
2.------5--------3----------0-1--------
3.--4-----2--4-----4-0--2--------------
4.--2--------4----------2--------------
5.-----------2----------0--------0-2-3-
6.-------------------------------------

1.------------------
2.------------------
3.----------0-------
4.--0-2---0---2-0-2-
5.------3-----------
6.------------------

...Malvivía, alquilando por...
1.--------------------------------------
2.--------------------------------------
3.--4-----------------------------------
4.--2-2-2-2-2-2-2-2-2--4----------------
5.---------------------2-2-2-2-2-2-2-2-2
6.--------------------------------------

1.--------------------------------------
2.--------------------------------------
3.--------------------------------------
4.-4------------------2-----------------
5.-2-2-2-2-2-2-2-2-2--0-0-0-0-0-0-0-0-0-
6.--------------------------------------

1.----------
2.----------
3.-----2--4-
4.--5--0--2-
5.--3-------
6.---------...

...Eran tiempos duros...
1.----------------------------------
2.----------------------------------
3.------------------------------5-4-
4.---------7----------------7-4-----
5.--7-9-10---9-5-7---7-9-10---------
6.-----------------7----------------

1.---------------------------------
2.---------------------------------
3.---------------------------------
4.---------7----------------7-4--2-
5.--7-9-10---9-5-7---7-9-10--------
6.-----------------7---------------

1.--------5---------------5---8-7--
2.--5-7-8---7-3-5---5-7-8---7------
3.----------------4----------------
4.---------------------------------
5.---------------------------------
6.---------------------------------

1.--------5---------------5-------
2.--5-7-8---7-3-5---5-7-8---7--5--
3.----------------4---------------
4.--------------------------------
5.--------------------------------
6.--------------------------------

(1:11)...Brilla el acero en su mano..

  Guitarra 1. ...
1.----------------------------------
2.----------------------------------
3.-4--------------------------------
4.-2--------------------------------
5.----------------------------------
6.----------------------------------

Guitarra 2.
1.----------------------------------
2.-8-7-8---8-7-8---8-7-8---8-7-8----
3.-------9-------9-------9-------9--
4.----------------------------------
5.----------------------------------
6.----------------------------------

Guitarra 1.
1.----------------------------------
2.----------------------------------
3.----------------------------------
4.-4--------------------------------
5.-2--------------------------------
6.----------------------------------

Guitarra 2.
1.----------------------------------
2.----------------------------------
3.-7-6-7---7-6-7---7-6-7---7-6-7----
4.-------9-------9-------9-------9--
5.----------------------------------
6.----------------------------------

Guitarra 1.
1.----------------------------------
2.----------------------------------
3.-2--------------------------------
4.-0--------------2-------5---------
5.----------------0-------3---------
6.----------------------------------

Guitarra 2.
1.-------------------------5-3-5-2--
2.-7-5-7---7-5-7---5-3-5------------
3.-------7-------7-------5----------
4.----------------------------------
5.----------------------------------
6.----------------------------------

Guitarra 1.
1.--------------------------------------
2.--------------------------------------
3.--------------------------------------
4.-4------------------------------------
5.-2------------------------------------
6.--------------------------------------

1.--------------------------------------
2.-7-5-7-4--8-7-8-5--10-8-10-7--12-13-12
3.--------------------------------------
4.--------------------------------------
5.--------------------------------------
6.--------------------------------------

   (2:34)
1.--------------------------------------
2.--------------------------------------
3.----4---4-5-4--------4---4-5-4--------
4.--5---7-------7-5--5---7-------7-5--5-
5.--------------------------------------
6.--------------------------------------

1.--------------------------------------
2.------------------------------------0-
3.--4---4-5-4--------4---4-5-4------0---
4.----7-------7-5--5---7-------7-5------
5.--------------------------------------
6.--------------------------------------

1.--------------------------------------
2.----0-1-0--------0---0-1-0--------0---
3.--2-------2-0--0---2-------2-0--0---2-
4.--------------------------------------
5.--------------------------------------
6.--------------------------------------

1.-----------------------------
2.--0-1-0--------0---0-1-0-----
3.--------2-0--0---2-------2-0-
4.-----------------------------
5.-----------------------------
6.---------------------------...

  (2:58) //Con palanca vibrato...//
1.--------------------------------------
2.--17---17-15-17-19--17-19--19(20)--17-
3.--------------------------------------
4.--------------------------------------
5.--------------------------------------
6.--------------------------------------

//...               ...//
1.--/19--17h19--17h19-------------------
2.--------------------------------------
3.--------------------------------------
4.-------------------------------7-9-10-
5.------------------------7-9-10--------
6.--------------------------------------

1.--------------------------------------
2.-------------------8-10-12-10-8---10-8
3.---------7-9-11-7---------------11----
4.--7-9-10------------------------------
5.--------------------------------------
6.--------------------------------------

1.--------------------------------------
2.--------------------------------------
3.--11-9-11-9-7----9-7------------------
4.--------------10-----10-9-10-9-7------
5.--------------------------------------
6.--------------------------------------

1.--8-7-8--/15-------------
2.--------------8-7-8--/10-
3.-------------------------
4.-------------------------
5.-------------------------
6.------------------------...

 (3:17)
1.--7--7-10-8-7--------------7-7-10-8-7-
2.--------------10-8-7-5-7-8------------
3.--------------------------------------
4.--------------------------------------
5.--------------------------------------
6.--------------------------------------

1.--12-14-15-14-12----12--7--7-10-8-7---
2.-----------------15-----------------10
3.--------------------------------------
4.--------------------------------------
5.--------------------------------------
6.--------------------------------------

1.------------7-7-10-8-7--12-14-15-14-12
2.--8-7-5-7-8---------------------------
3.--------------------------------------
4.--------------------------------------
5.--------------------------------------
6.--------------------------------------

1.-----12-
2.--15----
3.--------
4.--------
5.--------
6.--------...

  (3:29)
1.--------------------------------------
2.--------------------------------------
3.--4-----------------------------------
4.--2-2-2-2--2-2-2--2-2-2-5--4----------
5.---------------------------2-2-2-2--2-
6.--------------------------------------

1.--------------------------------------
2.--------------------------------------
3.--------------------------------------
4.----------------2---------------------
5.--2-2--2-2-2-5--0-0-0-0--0-0-0--0-0-0-
6.--------------------------------------

1.-----------------
2.-----------------
3.--------4--4-4-4-
4.------0-2--2-2-2-
5.--2-3------------
6.-----------------...

 (3:41)...En el tejado del tiempo...
1.-------------------------------------
2.-------------------------------------
3.--4-4--4-4---------------------------
4.--2-2--2-2--2-5--4-4--4-4-------2-2--
5.-----------------2-2--2-2--2-5--0-0--
6.-------------------------------------


1.-------------------------------------
2.-------------------------------------
3.-----------------------2--2-2-2------
4.--2-2---------5-5-5----0--0-0-0--0---
5.--0-0--0-2-3--3-3-3--3--------------0
6.------------------------------------2

1.------------------------------
2.----------------2/4-2-0-------
3.------------------------3-2-0-
4.------------------------------
5.--2-2-2--2-2-2----------------
6.--0-0-0--0-0-0--------------...

  (4:06)...Agudiza tu ingenio...
1.------------------------------------
2.------------------------------------
3.---4--4--4---4---4---4---4---4------
4.--2--2--2--2---2---2---2---2------4-
5.--------------------------------2---
6.------------------------------------

1.------------------------------------
2.------------------------------------
3.------------------------------------
4.---4--4--4---4---4---4---4----2---2-
5.--2--2--2--2---2---2---2----0---0---
6.------------------------------------

1.------------------------------------
2.-------------------------------7-7--
3.---------------------------9-9------
4.----2---2---2---2---2---2-----------
5.--0---0---0---0---0---0-------------
6.------------------------------------

1.-7-7---------------7-7--------------
2.-----7-7--5-5--7-7-----7-7---12---12
3.---------------------------9----9---
4.------------------------------------
5.------------------------------------
6.------------------------------------

1.------------------------------------
2.---12---12--------------------------
3.--9---9------11---11---11---11---9--
4.-----------9----9----9----9----7---7
5.------------------------------------
6.------------------------------------

1.------------------------------------
2.------------------------------------
3.--9---9---9----12---12---11---11--9-
4.----7---7----9----9----9----9-------
5.------------------------------------
6.--------------------------------...

No hay comentarios:

Publicar un comentario