.

banners

Tabs fácil de...If eternity should fail. Iron maiden.

www.tabsfacil.es
Tablaturas fáciles para guitarra.

















If eternity should fail. Iron maiden.


(1:33)Guit. 1.
1.-------------------------------
2.--/6-3--6-5-3----/6-3--6-5-3---
3.--------------5--------------5-
4.-------------------------------
5.-------------------------------
6.-------------------------------

1.-------------------------------
2.--/6-3--6-5-3----/6-3--6-5-3---
3.--------------5--------------5-
4.-------------------------------
5.-------------------------------
6.-------------------------------


1.---------------------------------
2.---------------------------------
3.--2-------2-2--5--4--2-2---2-----
4.--0--5-5--0-0--3--2--0-0---0-5-5-
5.-----3-3---------------------3-3-
6.---------------------------------

1.-----------------
2.-----------------
3.----2-2--5-4-2-2-
4.--5-0-0--3-2-0-0-
5.--3--------------
6.-----------------...

(1:33)Guit. 2.
1.--/5---5-3------/5---5-3------/5-
2.-----6-----6-5-----6-----6-5-----
3.---------------------------------
4.---------------------------------
5.---------------------------------
6.---------------------------------

1.----5-3------/5----5-3--5-5-
2.--6-----6-5-----6-----------
3.----------------------------
4.----------------------------
5.----------------------------
6.----------------------------...

(2:46)
1.-----------------------------
2.-----------------------------
3.--2------------------------2-
4.--0---5---3----------5-----0-
5.------3----1----3----5--3----
6.-----------1----3------------


1.-----------------------------
2.-----------------------------
3.--2------------------------2-
4.--0---5---3----------5-----0-
5.------3----1----3----5--3----
6.-----------1----3------------

1.-----------------------------
2.-----------------------------
3.--2------------------------2-
4.--0---5---3----------5-----0-
5.------3----1----3----5--3----
6.-----------1----3------------

(5:03)
1.---------------------------------
2.---------------------------------
3.---------2---------------------2-
4.--2--2-2---5--5-4-5-2---2--2-2---
5.---------------------------------
6.---------------------------------

1.-----------------------------------
2.-----------------------------------
3.----------------------2------------
4.--5--5-4-5-2---2--2-2---5--5-4-5-2-
5.-----------------------------------
6.-----------------------------------

1.-----------------------------------
2.-----------------------------------
3.---------2-------------------------
4.--2--2-2---5--5-4-5-2---3-3--5--7-7
5.-----------------------------------
6.-----------------------------------

1.----------------------------------
2.----------------------------------
3.-----------7-9--10-9--10-10-10-9--
4.--9-10-10-------------------------
5.----------------------------------
6.----------------------------------

1.------------------------------------
2.------------------------------------
3.--10-9---------2--------------------
4.--------2--2-2---5--5-4-5-2---2--2-2
5.------------------------------------
6.------------------------------------

1.-------------------------------------
2.-------------------------------------
3.--2----------------------------------
4.----5--5-4-5-2---3-3--5--7-7--9-10-10
5.-------------------------------------
6.-------------------------------------

1.------------------------------
2.------------------------------
3.--7-9--10-9--10-10-10-9--10-9-
4.------------------------------
5.------------------------------
6.------------------------------

1.--/5---5-3------/5---5-3------/5-
2.-----6-----6-5-----6-----6-5-----
3.---------------------------------
4.---------------------------------
5.---------------------------------
6.---------------------------------

1.----5-3--------------------17h15h17-
2.--6-----6-5-------------------------
3.-------------/7---7-5-7-9-----------
4.----------------7-------------------
5.------------------------------------
6.------------------------------------


1.-17h15h17--18-20-18--17h15h17--15h13h15
2.---------------------------------------
3.---------------------------------------
4.---------------------------------------
5.---------------------------------------
6.---------------------------------------

1.--13h12h13--12h10h12-
2.---------------------
3.---------------------
4.---------------------
5.---------------------
6.---------------------...




No hay comentarios:

Publicar un comentario en la entrada