.

banners

Tablatura fácil de... Huelo el miedo. Warcry.



  www.tabsfacil.es
   Tablaturas fáciles para guitarra











Huelo el miedo. Warcry.

(1:24)
1.---------------------------------------------
2.---------------------------------------------
3.---------------------------------------------
4.---5---3---2---------------------------------
5.---3---1---0---5-----5-----5-----5---3---5-5-
6.---------------3-3-3-3-3-3-3-3-3-3---1---3-3-. . .


(2:45)
1.----------15-17-17(18)(17)-15-14---14h15h14---
2.---/15-15-------------------------------------
3.----------------------------------------------
4.----------------------------------------------
5.----------------------------------------------
6.----------------------------------------------

1.-----------------------14----15----17---22(23)(22)
2.---15h16h15h13h15---15----15----15----------------
3.--------------------------------------------------
4.--------------------------------------------------
5.--------------------------------------------------
6.--------------------------------------------------



1.-20-------------19(20)-22-18---18-17-------------
2.---------18--------------------------18----------
3.-----/17----17--------------------------17-------
4.-------------------------------------------20-19-
5.-------------------------------------------------
6.---------------------------------------------. . .



No hay comentarios:

Publicar un comentario en la entrada