.

banners

Acordes de...Garabatos. Fito & fitipaldis.

  www.tabsfacil.es   
Tablaturas fáciles para guitarra














Garabatos. Fito & fitipaldis.


(Intro).                   (En el paso de Re# a La#, en el           
                           estribillo podemos tocar estas                          
                           notas).
1.---------------------       1.-----------
2.---------------------       2.-----------
3.---------------------       3.-------3---
4.-------5-6-5---------       4.---3h5-----
5.-----8-------8-6-5---       5.-----------
6.---6---------------6-       6.-----------

Do La#                     Do
  Todo llega y todo pasa como un espejismo.

Sol#                   La#   Do
Todos fuimos garabatos de nosotros mismos.

La#                         Do
Lo que queda en la mirada no es que esté escondido.

Sol#                        La#       Do
Pero hay cosas que solo se ven si pasas cerca del abismo.


Fa                                     Sol
  Y en las puertas de mi barrio descubrí la vida.

Re#           La#                Do
Y la quise besar y ella quería morderme.

Re#                        La#                Do
toda mi vida es un gesto que solo tus ojos entienden.

Re#           La#                Do
Yo la quería besar y ella quería morderme.

(0:57)
1.--------------------------------------------------
2.--------------------11----------11----------------
3.---------------8-10----8-10(12)----10(12)(10)-8h10
4.----------8-10------------------------------------
5.-------10-----------------------------------------
6.-8/6\8--------------------------------------------



1.-------------8-----------------------------
2.---------8-8-------------------------------
3.---10(12)-------10(12)(10)-8---------------
4.-----------------------------10-8-/3-1-----
5.---------------------------------------3---
6.-------------------------------------------


La#                                           Do
   Ordenando mis recuerdos he pensao que todo fue hace 

mucho tiempo ya.

La#                           Sol#                                      
Y cada mañana en el espejo le saludo siempre al viejo que

Do
llegó cuando se fué el chaval.

La#                                  Do
Casi como un accidente me envolvió el sonido.

Sol#                   La#                 Do
Hay canciones que te dan de frente y te señalan el camino.


Fa                                     Sol
  Y en las puertas de mi barrio descubrí la vida.

Re#           La#                Do
Y la quise besar y ella quería morderme.

Re#                        La#                Do
toda mi vida es un gesto que solo tus ojos entiendes.

Re#           La#                Do
Yo la quería besar y ella quería morderme.


Fa                                         Re#
  Abrió la boca y me tragó y no dejó de repetir

La#                       Do
ven ami lado y te daré todo lo que pidas.

Fa                                   Re#
Y ahora que sé que me engañó solo me queda por decir

La#                              Do
que cada vez que me perdí me encontró la vida.

Re#                   La#            Do
  Y la quise besar y ella quería morderme.

Re#                       La#           Do
Toda mi vida es un gesto que solo tus ojos entienden.

Re#                   La#            Do
Y la quería besar y ella quería morderme.

Re#                       La#           Do
Toda mi vida es un gesto que solo tus ojos entienden.


No hay comentarios:

Publicar un comentario