Ir al contenido principal

Acordes de...Garabatos. Fito & fitipaldis.

  www.tabsfacil.es   
Tablaturas fáciles para guitarra














Garabatos. Fito & fitipaldis.


(Intro).                   (En el paso de Re# a La#, en el           
                           estribillo podemos tocar estas                          
                           notas).
1.---------------------       1.-----------
2.---------------------       2.-----------
3.---------------------       3.-------3---
4.-------5-6-5---------       4.---3h5-----
5.-----8-------8-6-5---       5.-----------
6.---6---------------6-       6.-----------

Do La#                     Do
  Todo llega y todo pasa como un espejismo.

Sol#                   La#   Do
Todos fuimos garabatos de nosotros mismos.

La#                         Do
Lo que queda en la mirada no es que esté escondido.

Sol#                        La#       Do
Pero hay cosas que solo se ven si pasas cerca del abismo.


Fa                                     Sol
  Y en las puertas de mi barrio descubrí la vida.

Re#           La#                Do
Y la quise besar y ella quería morderme.

Re#                        La#                Do
toda mi vida es un gesto que solo tus ojos entienden.

Re#           La#                Do
Yo la quería besar y ella quería morderme.

(0:57)
1.--------------------------------------------------
2.--------------------11----------11----------------
3.---------------8-10----8-10(12)----10(12)(10)-8h10
4.----------8-10------------------------------------
5.-------10-----------------------------------------
6.-8/6\8--------------------------------------------



1.-------------8-----------------------------
2.---------8-8-------------------------------
3.---10(12)-------10(12)(10)-8---------------
4.-----------------------------10-8-/3-1-----
5.---------------------------------------3---
6.-------------------------------------------


La#                                           Do
   Ordenando mis recuerdos he pensao que todo fue hace 

mucho tiempo ya.

La#                           Sol#                                      
Y cada mañana en el espejo le saludo siempre al viejo que

Do
llegó cuando se fué el chaval.

La#                                  Do
Casi como un accidente me envolvió el sonido.

Sol#                   La#                 Do
Hay canciones que te dan de frente y te señalan el camino.


Fa                                     Sol
  Y en las puertas de mi barrio descubrí la vida.

Re#           La#                Do
Y la quise besar y ella quería morderme.

Re#                        La#                Do
toda mi vida es un gesto que solo tus ojos entiendes.

Re#           La#                Do
Yo la quería besar y ella quería morderme.


Fa                                         Re#
  Abrió la boca y me tragó y no dejó de repetir

La#                       Do
ven ami lado y te daré todo lo que pidas.

Fa                                   Re#
Y ahora que sé que me engañó solo me queda por decir

La#                              Do
que cada vez que me perdí me encontró la vida.

Re#                   La#            Do
  Y la quise besar y ella quería morderme.

Re#                       La#           Do
Toda mi vida es un gesto que solo tus ojos entienden.

Re#                   La#            Do
Y la quería besar y ella quería morderme.

Re#                       La#           Do
Toda mi vida es un gesto que solo tus ojos entienden.


Comentarios

LO MÁS BUSCADO EN TABSFACIL.ES:

Tabs fácil de... Evil twin. Anthrax.

"For all kings" es el título con el que, el 26 de Febrero de 2016, la legendaria banda y padres del thrash metal, Anthrax, regresaban al panorama musical internacional después de 4 años de inactividad.   Unos días antes nos dejaban portada y tema adelanto "Evil twin" del que como siempre os quiero dejar unos momentos en tablatura que, espero que disfrutéis.   Un saludo.   TabsFácil.





Evil twin. Anthrax.
1.------------------------------------- 2.------------------------------------- 3.------------------------------------- 4.--6-7-8--6-7-8--------4h6-7-8--6-7-8- 5.---------------6-6-6----------------- 6.-------------------------------------
1.----------------------- 2.----------------------- 3.----------------------- 4.--3-/6-6--6-7-8--6-7-8- 5.--1-/4-4--------------- 6.----------------------...
(0:22)
1.-------------------------------- 2.-------------------------------- 3.-------------------------------- 4.-------------------------------- 5.-------------------------------- 6.--4-4-4-7-7-2-…

Aprende a tocar...Constelación Alpha D.C.I. Mägo de Oz.

Todas las críticas que he leído del disco coincidían en que "Constelación D.C.I." era  la canción más "rara" que había en el nuevo trabajo de la banda, din dejar de ser un buen tema.
  En OZTABLATURAS puedes aprender a tocarla desde ya.
  Un saludo.
  OzTablaturas.

Constelación Alpha D.C.I.







Acordes de... Lágrimas de mármol. Joaquin Sabina.

"Lágrimas de mármol" es el segundo adelantodel esperado trabajo de Joaquín Sabina, "Lo niego todo" que saldrá a primeros de Marzo. Cómo todos ya sabréis, para éste último disco se ha rodeado de nada más y nada menos que de Leiva como productor del disco, "Voy a juntarme con un jovenzuelo que me gusta mucho, a ver si renovamos un poco el aire",  son palabras textuales del propio artista.  En Tablaturas fáciles os queremos dejar los acordes de "Lágrimas de mármol" para los que les guste tocar las canciones de Sabina.    Un saludo.    TabsFácil.




Lágrimas de mármol. Joaquin Sabina.

Si  -  La#m  -  Sol·m  -  Fa#  -  Do#m - Sol  -  Si-  Fa#
Si                                    Mi    El tren se aleja, el tiempo pasa
Si                               Fa# la vida alrededor ya no es tan mía
Sol#m                            Mi desde el observatorio de mi casa
Si                      Fa# la fiesta se resfria.
Si                                          Mi Los pocos que …

Tablatura fácil de... Warrior. Michael Schenker Group.

Mientras el 2 de Marzo regresa un grande de la guitarra acompañado de un elenco de artistas de gran talla y envergadura, ya podemos ir disfrutando de adelantos o singles, cómo el tema "Warrior" segundo tema adelanto de "Resurrection" el próximo disco de Michael Schenker y en el que contará con los vocalistas más populares que pasaron por sus filas años atrás, Gary Barden, Graham Bonnet y Robin McAuley.
  Disfruta en Tablaturas fáciles de un momento en tablatura de "Warrior." adelanto del próximo disco de Michael Schenker.
  Un saludo.


Warrior. Michael Schenker Group.

1.---------------------------|
2.---------------------------|
3.-------5-------------------|
4.-5-7-9---9-7-9--7-5-7--5-4-|
5.---------------------------|
6.---------------------------|

1.--------------|
2.--------------|
3.--------------|
4.-4h5---4------|
5.-----7---7-5--|
6.--------------|...



(0:45)
1.--------------------------------|
2.--------------------------------|
3.--------------------------------|
4…

Tabs fácil de ... The eagle flies alone. Arch Enemy.

Tres años después Arch Enemy vuelve a sacar disco "Will to power". Un disco para consagrar dentro de la banda a su nueva vocalista, Alissa Whiteglutz y en el que empiezan aparecer las aportaciones del casi recién incorporado Jeff Loomis.
  Un disco cargado, como nos tiene acostumbrados la banda sueca, de riffs cañeros y grandes melodías y, es una de esas de las que os queremos dejar hoy en Tablaturas fáciles un momento en tablatura.
Nada mas y nada menos que del tema "The eagle flies alone" para que la disfrutéis y practiquéis con la guitarra.
  Un saludo.
  TabsFácil.





The eagle flies alone. Arch Enemy.


(0:45)

1.------------------------------|
2.------------------------------|
3.-------5/6\5-3-5-3h5h3/1---3--|
4.-3-5-6-------------------1---1
5.------------------------------|
6.------------------------------|

1.---------------------------|
2.---------------------------|
3.-3---3---3---3---3---3---3-|
4.---1---1---1---1---1---1---|
5.---------------------------|
6.----------------…