.

banners

Tablatura fácil de...El sueño de un loco. Zenobia.

  www.tabsfacil.blogspot.com
    Tablaturas fáciles para guitarra














 El sueño de un loco. Zenobia.

1.---------------------------------
2.---------------------------4-4h6-
3.--7-/10\7--5--7-7--7-/10\7-------
4.---------------------------------
5.---------------------------------
6.---------------------------------

1.-----------------------------
2.---------------------------4-
3.--7-/10\7--5--7-7--7-/10\7---
4.-----------------------------
5.-----------------------------
6.-----------------------------

1.-----------------------------------------------
2.-----------------------------------------------
3.-----------------------------------------------
4.--/-3h0---0-0--/3h0-1-1h3--/-3h0---0-0-/-3h0-1-
5.--------3------------------------3-------------
6.--------------------------------------------...

(0:50)  "Imperio construído con la muerte...
1.-------
2.-------
3.-------
4.-------
5.---5---
6.---3---

(1:05)  ...brazos en alto..."
1.-----------------------------------------------
2.-----------------------------------------------
3.-----------------------------------------------
4.-------------------5-------------5-----8-8-8-8-
5.--1-0------5-5-5-5-5-5-5-5-5-5-5-5-----6-6-6-6-
6.------3-1--3-3-3-3---3-3-3-3-3-3---3-3---------

1.---------------------------------------------
2.---------------------------------------------
3.--8------------------------------------------
4.--8---------------3-------------5-----8-8----
5.-----6-6--3-3-3-3-3-----5-5-5-5-5-----6-6--3-

6.----------1-1-1-1---1-1-3-3-3-3---3-3------1-...

No hay comentarios:

Publicar un comentario