.

banners

Tablatura fácil de...El dorado. Salvador Domínguez.



   El momento en tablatura fácil de hoy, no es otro cualquiera. Desde luego que me hace ilusión sacar tablaturas de Iron maiden, de Saxon, de Scorpions, etc. Pero tenerla en esta ocasión de Salvador Domínguez va más allá.
   Más allá por que con él empece a dar mis primeros pasos en este mundo de la guitarra eléctrica, con él comencé a comprender que era todo eso de los acordes, escalas, modos y demás.
  Su método "En la jungla de la seis cuerdas" era el único referente que conocí en aquella época y, aún hoy para mí, sigue muy, muy vigente (Aprende a tocar la guitarra).
  Por eso, aprovechando la salida al mercado recientemente de su nuevo disco, "Recuperemos la ilusión", os quiero dejar, como decía, unos momentos en tablatura del tema "El dorado" que espero que os guste y disfrutéis.
  Un saludo.
  TabsFácil.


El dorado. Salvador Domínguez.


1.---------------------------------------
2.---------------------------------------
3.-----7-9-7----------7-9-7----7-9-7-----
4.-/10-------10-9--10-------10-------10-9
5.---------------------------------------
6.---------------------------------------

1.---------------------------------------
2.---------------------------------------
3.-------------7-9-7----------7-9-7------
4.-/10--/9--10-------10-9--10-------10-9-
5.---------------------------------------
6.---------------------------------------

1.---------------------------------------
2.--------5-6-5----------5-6-5-----------
3.----5-7-------7----5-7-------7----4-5-7
4.-/7-------------/7-------------/7------
5.---------------------------------------
6.---------------------------------------

1.---------------------------------------
2.-----------------------------5-6-5-----
3.-5-4-5----4-5-7-5-4-5----5-7-------7---
4.--------7--------------7-------------7-
5.---------------------------------------
6.---------------------------------------

1.-------------------------------------
2.-----5-6-5------------5-6-5----------
3.-5-7-------7----4-5-7-------7--5-7-5-
4.--------------7----------------------
5.-------------------------------------
6.-------------------------------------




1.-------------------------------------
2.-------------------------------------
3.-4-5-4----4--------------------------
4.--------7---7--6-7--7(9)-7-5--7-7(9)-
5.-------------------------------------
6.-------------------------------------

1.-------------------------------------
2.-6-5---------------------------------
3.-----7--7(9)-7-5---5-7-9-7--19(21)-19
4.-----------------9-------------------
5.-------------------------------------
6.-------------------------------------

1.-------------------------------------
2.--------------18h17------------------
3.-17-19-19(21)-------19--19(21)-19-17-
4.-------------------------------------
5.-------------------------------------
6.-------------------------------------

1.------------------------------------
2.-------15---------------------------
3.-16-17----17--16h17h16h17h16h17h16--
4.------------------------------------
5.------------------------------------
6.------------------------------------

1.------------------------------------
2.------------------------------------
3.-/5-4---------------/9--7-----------
4.------7--7-7-7-9-10-------10-9-10--7
5.------------------------------------
6.------------------------------------

1.----------------------------
2.----------------------------
3.-4-5-7-/9-7-5------5--------
4.-----------------7---9--5h7-
5.---------------7------------
6.----------------------------...


No hay comentarios:

Publicar un comentario