.

banners

Acordes de...Corazon de trapo. Dikers.

    
www.tabsfacil.es
Tablaturas fáciles para guitarra.











Corazon de trapo. Dikers.





Do menor            re#mayor
Fue tu forma de decir que me equivoqué

Do menor              re#mayor
estrellando nuestra foto en la pared.

Do menor             re#mayor
Sólo me dejaste, envueltas en papel,

Do menor               re#mayor
las cenizas de algo que no puedo ser.

1.--------------------------------------------------------
2.--------4-----------------------------------------------
3.------------7---7/8------8---7---7/8---------8---7---7/8
4.-----6----6---6--------6---6---6---------------8---8----
5.---------------------8-------------------10-------------
6.---4-----------------------------------8----------------

1.-----------------------------------------
2.-----------------------------------------
3.--------8----------7/8------8---------7h8
4.------8---8---------------8---8-----8----
5.---10----------10-------6----------------
6.-------------8-------------------6-------

Tengo que coser, otra vez, con un alfiler

mi corazón, corazón de trapo

y desaparecer como el tren que debí coger

                                sol#mayor
cuando el amor pasó de largo.

Do menor           re#mayor           sol menor
Se que me arrepentiré de mi decisión

Do menor                   re#mayor     sol menor
aunque pongas cara de que es lo mejor.

Do menor                 re#mayor    sol menor
Tu recuerdo lo tiré por un balcón

Do menor              re#mayor          sol menor
no me busques si despiertas y no estoy.

Sol#mayor                            do menor
Tengo que coser otra vez con un alfiler

             Re#mayor
mi corazón, corazón de trapo

sol#mayor                             do menor
y desaparecer como el tren que debí coger

               re#mayor
cuando el amor pasó de largo.

(2:00)
1.----------------------------
2.---8--------8-------8-------
3.-----8-7h8----8-7h8---8-7h8-
4.----------------------------
5.----------------------------
6.----------------------------


Corazón de trapo
Corazón de trapo
Corazón de trapo
Corazon de trapo..

No hay comentarios:

Publicar un comentario