.

banners

Tabs fácil de...Concédeme una vida. Zenobia.

  www.tabsfacil.es
    Tablaturas fáciles para guitarra















Concédeme una vida. Zenobia.

  "Cuando te reconocí...
1.--------------------------------------
2.------------------------------8-------
3.-------8--------8---------------8-----
4.-----8---8----8---8----5----------8---
5.---6--------5--------3---5-6--------6-
6.--------------------------------------

  ya era tarde porque no eras para mí...
1.------------------------
2.------------------------
3.-----8-------8--------4-
4.---8---8---8---8---5--6-
5.---------5-------3----6-
6.----------------------4-

  Que daría yo por ti...
1.--------------------------------------
2.------------------------------8-------
3.-------8--------8---------------8-----
4.-----8---8----8---8----5----------8---
5.---6--------5--------3---5-6--------6-
6.--------------------------------------

  si quisieras conocerme...
1.------------------------
2.------------------------
3.-----8-------8--------4-
4.---8---8---8---8---5--6-
5.---------5-------3----6-
6.----------------------4-

(0:33)

Re#                   Do
   Y esa tarde junto a ti

Re#                      Do         Sol#
y mis historias que te hacían sonreír

   Re#            Do
comenzamos a sentir

  Re#              Do   Sol#
más yo ya confiaba en ti

La#                  Do                Sol#
y el destino me enseñó que hay que luchar

La#                    Do       La#
por lo que uno ama y así lo conseguirás.

       Re#
  Y llévame hasta donde estés

Do                   La#
y solo a ti te seguiré

 Sol#
concédeme esta noche

   Do              La#
y que el sol nos vea amanecer

       Re#
no sabes como te busqué

  Do             La#
ni cuanto yo te amaré

    Sol#
concédeme una vida

      Do            La#
y juro que te cuidaré...



1 comentario:

  1. el DO es un DO menor viejos excelente la estaba buscando por todos lados, gracias brother

    ResponderEliminar