.

banners

Tablatura fácil de...Cadaveria. Mago de oz.


  www.tabsfacil.es
    Tablaturas fáciles para guitarra
















Cadaveria. Mago de oz.

1.-------------------------------------------------
2.-------------------------------------------------
3.----------------------2------2-----------------2-
4.-2---------2----------0------0---0-------4---2-0-
5.-0---0-0-0-0--0-2-4------0-0-------4-2---2---0---
6.-------------------------------------------------


                     "Soy la voz...
1.-----------------------------------------------
2.-----------------------------------------------
3.-----------------------------------------------
4.-----------------------------------------------
5.-4-2-0--4-2-0--0-0-0-0--0-0-0-0-0-0-0-0-0--0-0-
6.-----------------------------------------------

1.-------------------------------------------------
2.-------------------------------------------------
3.-------------------------------------------------
4.-------------------------------------------------
5.-0-0-0-2-2-2-2--2-2-2-2-2-2-2-2-2--2-2-2-2-2-0-0-
6.-------------------------------------------------

1.------------------------------------------------
2.------------------------------------------------
3.------------------------------------------------
4.------------------------------------------------
5.-0-0--0-0-0-0-0-0-0-0-0--0-0-0-0-0-0-0-0-0--0-0-
6.------------------------------------------------


                           "...Sígueme..."
1.------------------------------------------------
2.------------------------------------------------
3.------------------------------------------------
4.----------------/7-6-4--------------------------
5.-0-0-0-0-0-0-0----------7-7---------7-7---------
6.------------------------5-5-5/4h0---5-5-5/4h0---

1.-----------------------------------------------
2.-----------------------------------------------
3.-----------------------------------------------
4.-----------------------------------------------
5.-9-9---------9-9---------7-7---------7-7-------
6.-7-7-7/5h0---7-7-7/5h0---5-5-5/4h0---5-5-5/4h0-

1.---------------------------------------------
2.---------------------------------------------
3.---------------------------------------------
4.---------------------------------------------
5.-7-7-----------------------------------------
6.-5-5-5/4h0--5-5-5-5--7-7-7-7--9-9-9-9--10-10-


            "...el miedo a envejecer..."
1.--------------5---------------------
2.--------------5-------------7-------
3.---------------------7------7-------
4.---------------------7---7----------
5.-----------7------9------5------7---
6.---10-10---5------7-------------5---


   (Estribillo)"...Ven a mí..."
1.------------------------------------------------
2.------------------------------------------------
3.------------------------------------------------
4.-----2---------------2----------------2---------
5.-2---0---2---4---2---0---2---4--------0---2---2-
6.-0-------0---2---0-------0---2--0-0-0-----0---0-

1.-----------------------------2-----------------
2.-----------------------------2----10-9-7-------
3.-----------------------------------------9-6---
4.-------------2-------4-----------------------9-
5.-4-----------0---2---2---4---------------------
6.-2---0--0--0-----0-------2---------------------

1.------------------------------
2.-----------10-9-7-------------
3.---6-7-6----------9-6---------
4.----------------------9-6-----
5.--------------------------7-9-
6.------------------------------


(Solo)
1.--------------------------9--7-5-7--7/9-7-5-7---5
2.-------------------7-9-10---------------------5--
3.-------------6-7-9-------------------------------
4.-------6-7-9-------------------------------------
5.-5-7-9-------------------------------------------
6.-------------------------------------------------

1.-7-9-10-12-7--9-10-9------------------------------
2.---------------------12-10-9-10-9-----------------
3.----------------------------------11-9-7----------
4.-----------------------------------------11-7-9-7-
5.--------------------------------------------------
6.--------------------------------------------------

1.----------------------------------------------
2.---------------------(H.H.)-------------------
3.-6-------------6-------9----2--4--6--7--4--/9-
4.--9-7----7-9-7---7-9-7---7--------------------
5.-------7--------------------------------------
6.----------------------------------------------

No hay comentarios:

Publicar un comentario en la entrada