.

banners

Tabs fácil de...Battering ram. Saxon.

www.tabsfacil.es
Tablaturas fáciles para guitarra.

















Battering ram. Saxon.

1.-----------------------------------
2.-----------------------------------
3.-----------------------------------
4.-----------------------------------
5.--6--6-6-4--6--6-6--7/9\7-6--6-6-4-
6.-----------------------------------

1.-----------------------------------
2.-----------------------------------
3.-----------------------------------
4.-----------------------------------
5.--7-6--6-6-4--7/9\7-6--6--6-6-4--6-
6.-----------------------------------

1.----------------------
2.----------------------
3.----------------------
4.----------------------
5.--6-6--7/9\7-6--6-6-4-
6.--------------------...

(2:50)
1.----------------------------6-6----
2.--------------------------7-----9-7
3.----------------------6-8----------
4.----------6-8-9-6-8-9--------------
5.--/6--8-9--------------------------
6.-----------------------------------

1.----------------
2.--9(11)--13(15)-
3.----------------
4.----------------
5.----------------
6.--------------...


No hay comentarios:

Publicar un comentario