.

banners

Aprende a tocar...Satania. Finisterra Ópera Rock.

www.tabsfacil.es
Tablaturas fáciles para guitarra.








Satania. Finisterra ópera rock. Mägo de oz.

1.-------------------------------------
2.-------------------------------------
3.-------------------------------------
4.-------------------------------------
5.-------------------------------------
6.-0-0-0-0-0-0-0-0-0--0-0-0-0-0-0-0-0-0

1.-----------------------------------

2.-----------------------------------
3.--------------------------(HH)---7-
4.----------------2-0----5---2-----5-
5.--------------------2--------------
6.-0-0-0-0-0-0-0---------------------

1.-----------------------------------

2.-----------------------------------
3.-------------------------7---------
4.--7--9-------------------5--7--4---
5.--5--7-7-7-7-7-7-7-7-7------5--2-2-
6.-----------------------------------

1.-----------------------------------

2.-----------------------------------
3.-----------------7-----------------
4.-----------------5--7--9--4--5-----
5.-2-2-2-2-2-2-2------5--7--2--3--5--
6.--------------------------------3--

1.------------------------------------

2.------------------------------------
3.------------7-----------------------
4.--------7---5--7--9-----------------
5.-7-7-7--5------5--7-7-7-7-7-7-7-7-7-
6.-5-5-5------------------------------

1.------------------------------------

2.------------------------------------
3.-7------------------------7---------
4.-5--7--4------------------5--7--9---
5.----5--2-2-2-2-2-2-2-2-2-----5--7-7-
6.------------------------------------

1.------------------------------------

2.------------------------------------
3.------------------------------------
4.-------------------7----------------
5.-7-7-7-7-7-7-7--5--5-2-2-2-2-2-2-2-2
6.----------------3-------------------

      "Bienvenido a la Nueva Era...

1.----
2.----
3.----
4.--9-
5.--7-
6.----...

(0:20)Guit. 2.

1.-----------------------------------
2.----------12-13-15-13-12-----------
3.----12-14----------------11-12-----
4.-14-----------------------------14-
5.-----------------------------------
6.-----------------------------------

1.-------------------15-12-----------

2.-------12-13-15-13-----------------
3.-12-14-----------------------12-14-
4.--------------------------14-------
5.-----------------------------------
6.-----------------------------------

1.------------------------------------

2.-12-13-15-13-12---------------------
3.----------------11-12---/14h12-12-11
4.------------------------------------
5.------------------------------------
6.------------------------------------

1.---------------------------------

2.---------------------------------
3.----11-----11h12h111h12h11h12-/--
4.-14----12------------------------
5.---------------------------------
6.---------------------------------...

(o:53)

1.-------------5-8-----------------
2.-4-4-4-7-7-7------5--5-8-7-5---5-
3.-----------------------------7---
4.---------------------------------
5.---------------------------------
6.---------------------------------

1.-------------------------7-------

2.-7-8-7-5----------7-8-10---10-8-7
3.---------7-5--7-9----------------
4.---------------------------------
5.---------------------------------
6.---------------------------------

1.----------------------------------

2.----------------------------------
3.----------------------------------
4.-5-7-9-7-5---5-7-9-7-5---5-7-9-7-5
5.-----------9-----------9----------
6.----------------------------------

1.--------------

2.--------------
3.--------------
4.---9-7-5-4--9-
5.-9----------7-
6.--------------...

(5:28)

1.--T---------T---------T---------T------
2.-12-8h5h8--12-8h5h8--12-8h5h8--12-8h5h8
3.---------------------------------------
4.---------------------------------------
5.---------------------------------------
6.---------------------------------------

1.--T---------T---------T---------T------

2.-10-7h3h7--10-7h3h7--10-7h3h7--10-7h3h7
3.---------------------------------------
4.---------------------------------------
5.---------------------------------------
6.---------------------------------------

1.--T---------T---------T---------T------

2.-12-8h5h8--12-8h5h8--12-8h5h8--12-8h5h8
3.---------------------------------------
4.---------------------------------------
5.---------------------------------------
6.---------------------------------------

1.--T-----------T-----------T--------

2.-13-10h7h10--13-10h7h10--13-10h7h10
3.-----------------------------------
4.-----------------------------------
5.-----------------------------------
6.-----------------------------------

1.--T---------------------------------

2.-13-10h7h10---??--10(12)-10(12)-10-8
3.------------------------------------
4.------------------------------------
5.------------------------------------
6.------------------------------------

1.-----------

2.----8------
3.-11---11-9-
4.-----------
5.-----------
6.-----------...

(5:40)

1.-15-14--------17-15--------/19-17-
2.-------17-----------19-15---------
3.----------16----------------------
4.----------------------------------
5.----------------------------------
6.----------------------------------

1.-----------------------20-19-17-

2.-20-17--19-20-19--/19-----------
3.--------------------------------
4.--------------------------------
5.--------------------------------
6.--------------------------------

1.-----------------17-

2.-20-19-17--19-20----
3.--------------------
4.--------------------
5.--------------------
6.--------------------...

No hay comentarios:

Publicar un comentario