.

banners

Tablatura fácil de... Kashmir. Judith Mateo.



     Me he levantado esta mañana con ganas de escuchar rock clásico, del de toda la vida pero, también algo moderno y fresco y, enseguida me he acordado del "Celebration days" de Judith Mateo.
     Un disco con una bien hecha selección de temas del rock de toda la vida y a la vez con ese toque que le da Judith con su fabulosa técnica violinística.  En definitiva, un disco que no te cansas de oír y una compositora de la que siempre te quedas con ganas de escuchar un tema más.
    Os quiero dejar un lick en tablatura para guitarra perteneciente al tema "Kashmir" por el que siento especial debilidad. Espero que os guste y disfrutéis.

Disfruta de todas las tabs fáciles de Judith Mateo:

- Rock is my life.
- Raggle.

   Un saludo.
   TabsFácil.




Kashmir. Judith Mateo.


(1:00)
1.-------------------------------------
2.----------------10-------------------
3.---9(11)(9)(11)----9(11)-9-7-9---7-7-
4.-------------------------------9-----
5.-------------------------------------
6.-------------------------------------

1.-------------------------------------
2.----------------12-------10----10(12)
3.----7-9(11)--11----11-11----11-------
4.--9----------------------------------
5.-------------------------------------
6.-------------------------------------


1.--10----------------------------17---
2.-----10(12)-10---17(19)(17)(19)------
3.-------------------------------------
4.-------------------------------------
5.-------------------------------------
6.-------------------------------------


1.--------------------------------19(20)
2.--17(19)--17h15h17----15-/17-15------
3.-------------------16----------------
4.-------------------------------------
5.-------------------------------------
6.-------------------------------------


1.--(19)--17------------------------------
2.-----------20--18-19-20-21-22--17/19--15
3.----------------------------------------
4.----------------------------------------
5.----------------------------------------
6.------------------------------------...
               

No hay comentarios:

Publicar un comentario