.

banners

Tabs fácil de... I will build you a Rome. Cain's offering.




   Con miembros de Stratovarius y Sonata Arctica se formaba hace ya unos años Cain's Offering una banda de power metal con un sonido, como era de esperar por otro lado muy al estilo de las bandas anteriormente citadas.
   El año pasado, salía a la venta "Stormcrow" el segundo disco de la banda, y lo presentaban con el corte "I will build you a Rome" del que hoy, en Tabs fáciles os quiero dejar unos momentos en tablatura.
    Un saludo.
    TabsFácil.







I will build you a Rome. Cain's offering.

1.--------------6------------6-------7-
2.---/7---7---9---7----7---9---7---7---
3.------6---6---------6--6-------------
4.-------------------------------------
5.-------------------------------------
6.-------------------------------------

1.--6h7h6-------6-7-6------------6-----
2.--------9-7-9-------7----7---9---7---
3.-----------------------6---6---------
4.-------------------------------------
5.-------------------------------------
6.-------------------------------------

1.----/9-7-6-----6------7-6-----6---
2.--7--------9-9---7--7-----9-7---9-
3.----------------------------------
4.----------------------------------
5.----------------------------------
6.---------------------------------...

   (0:42)
1.------------------------------------
2.------------------------------------
3.------------------------------------
4.------------------------------------
5.--6---------8-------------8-------8-
6.--4-6-6-6-6-6-6-6-6-6-6-6-6-6-6-6-6-

1.------------------------------------
2.------------------------------------
3.------------------------------------
4.------------------------------------
5.--------------4-------4-------------
6.--6-6-6-6-6-6-2-2-2-2-2-2-2-2-2-2-2-

1.--------------------------
2.--------------------------
3.--------------------------
4.------------------------6-
5.--4-------4-------------4-
6.--2-2-2-2-2-2-2-2-2-2-2---...

No hay comentarios:

Publicar un comentario en la entrada