.

banners

Tablatura fácil de... Barbarian. The darkness.




   La banda de los hermanos Hawkins, después de separaciones, abandonos y problemas con el alcohol y las drogas volvía a reunirse y a grabar disco hace ya dos años. El primer tema del que pudimos disfrutar del último trabajo de The Darkness fue "Barbarian".
  Hoy os queremos dejar en TabsFácil un momento en tablatura del tema con el que presentaron al mundo su nuevo trabajo, para que disfrutéis tocando el rock, al estilo de ésta banda inglesa.

   Un saludo.
   TabsFácil. 




Barbarian. The darkness.


   (0:30)

1.----------------------------------
2.----------------------------------
3.----------------------------------
4.----------------------------------
5.------------------1--1-2-4--2-4-5-
6.---/7-0-0--/7-0-0-----------------


1.----------------------------------

2.----------------------------------
3.----------------------------------
4.----------------4-4--3-3--2-------
5.-------5-----5--2-2--1-1--0--5--2-
6.---0-0---0-0-----------------3--0-


1.----------------------------------

2.----------------------------------
3.----------------------------------
4.----------------------------------
5.------------------1--1-2-4--2-4-5-
6.---/7-0-0--/7-0-0-----------------


1.----------------------------------

2.----------------------------------
3.----------------------------------
4.----------------4-4--3-3--2-------
5.-------5-----5--2-2--1-1--0--5--2-
6.---0-0---0-0-----------------3--0-

   (0:44)  "Remorseless norsemen...
1.----------------------------------
2.---------3h2-3h2-3h2-3-5----------
3.----------------------------------
4.---2--2----------------------2--2-
5.---2--2-------------------2--2--2-
6.--------------------------0-------


1.----------------------------
2.---3h2-3h2-3h2-3-5----------
3.----------------------------
4.--------------------2--3--2-
5.--------------------0--3--0-
6.--------------------------...




No hay comentarios:

Publicar un comentario