.

banners

Tabs fácil de...Nothing left to fear. Lords of Black.



  No he visto crítica o referéndum estos años de atrás, en que no aparecieran entre los mejores o como banda revelación, o como mejor álbum del 2014 y es que Lords of Black han hecho en su corta carrera como banda, dos discos  impresionantes en todos los sentidos.
  Hoy en Tabs fáciles os queremos dejar un momento en tablatura del primer disco de la banda, en concreto del tema  "Nothing left to fear." Espero que os guste como ha quedado y lo disfrutéis.
   Un saludo.
   TabsFácil.






Nothing left to fear. Lords of Black.




(0:06)
1.------------------------------------------
2.------------------------------------------
3.------------------------------------------
4.-7------7-----7---------------------------
5.---7-8----7-8---7-8--5-5-5-5--5-5-5--5-5-5
6.------------------------------------------

1.------------------------------------------
2.------------------------------------------
3.------------------------------------------
4.-7------7-----7---------------------------
5.---7-8----7-8---7-8--5-5-5-5--5-5-5--5-5-5
6.------------------------------------------

1.------------------------------------------
2.------------------------------------------
3.------------------------------------------
4.-7------7-----7---------------------------
5.---7-8----7-8---7-8--5-5-5-5--5-5-5--5-5-5
6.------------------------------------------

1.------------------------------------------
2.------------------------------------------
3.------------------------------------------
4.-8------8-----8------8-8-8-8--8-8-8--8-8-8
5.---7-8----7-8---7-8-----------------------
6.------------------------------------------

1.------------------------------------------
2.------------------------------------------
3.------------------------------------------
4.-5------5-----5------5-5-5-5--5-5-5--5-5-5
5.---7-8----7-8---7-8-----------------------
6.------------------------------------------

1.------------------------
2.------------------------
3.------------------------
4.---7------7-----7-------
5.-----7-8----7-8---7-8---
6.---------------------...






No hay comentarios:

Publicar un comentario en la entrada