.

banners

Tabs fácil de...Raggle. Judith Mateo.




   Escuché por primera vez a Judith Mateo cuando buscaba algún tema de Lindsey Stirling para hacer un cover para guitarra y quedé sorprendidísimo de lo bien que sonaban todos sus temas, y es por eso que la tablatura de hoy está dedicada a esta violinista folk/rockera a la que desde aquí le deseo toda la suerte del mundo.
   Aunque ya tiene nuevo disco "Rock is my life" que por cierto suena genial!! Os dejo unos momentos de uno de los temas de sus anteriores trabajos.

  Disfruta de todas las tablaturas de Judith Mateo:

- Rock is my life.
- Kashmir.

   Saludos.
   TabsFácil.









 Raggle. Judith Mateo.




(0:27 Tiempo del video de Youtube).
1.-------------------------------------------------
2.------------------------------5-5h6h5------------
3.--------------------------7-7---------7----5-----
4.---7-5-3------7-5-3-----7----------------7---5-7-
5.---------7-5--------7-5--------------------------
6.-------------------------------------------------


1.-------------------------------------------------
2.-------------------------------------------------
3.-------------7-----------------------------------
4.---7-9-10-10----7-9-10-9-7----7--------------5-7-
5.---------------------------10----5-7-8-5-7-8-----
6.-------------------------------------------------

1.-------------------
2.-------------------
3.-------------------
4.-------------------
5.---8-7-8-5-7-3-5---
6.-------------------. . .





No hay comentarios:

Publicar un comentario