.

banners

Tablatura fácil de...Nos ocupamos del mar. Fito & fitipaldis.




  Otro de esos álbumes que no nos cansamos de oír, del que hemos desgranado algunos momentos en tablatura y acordes para guitarra ya en este blog y del que seguimos haciéndolo. Ésta vez le toca al solo de "Nos ocupamos del mar", 5º corte del álbum.
  Modestia aparte, creo que, aún no estando perfecto, puede servirnos para pasar un buen rato aprendiendo a tocar al estilo de este grande de la música española. Así que, a disfrutar.
  Un saludo.
  TabsFácil.











Nos ocupamos del mar. Fito & Fitipaldis.




(2:02)
1.----------------------------------------------
2.---------------22-22--------------------------
3.-----18-18(19)------(19)(18)18----14-16-16(18)
4.-/21---------------------------19-------------
5.----------------------------------------------
6.----------------------------------------------

1.----------------------------------------------
2.-22-22--17------------------------------------
3.-----------16(18)(16)--14-16--14-13-----------
4.------------------------------------14-----19-
5.---------------------------------------/21----
6.----------------------------------------------

1.---------------------22(24)--19(21)-19(21)--17
2.----------------------------------------------
3.----16-18--/18-19-19--------------------------
4.-21-------------------------------------------
5.----------------------------------------------
6.----------------------------------------------

1.---------------------------------------------
2.--------------------15-----------------19-17-
3.-------14-16-16(18)----(18)(16)-14h16--------
4.-14h16---------------------------------------
5.---------------------------------------------
6.---------------------------------------------

1.------------------------------------
2.----------------17-14---------------
3.--19-18--16(18)-------16(18)(16)-14-
4.------------------------------------
5.------------------------------------
6.------------------------------------...





No hay comentarios:

Publicar un comentario en la entrada